понедельник, 12 января 2009 г.

Танцы минус - Половинка (аккорды)

Народ попросил выложить как я эту песню играю.
Табы внутри


intro играем на баре, дальше можно перейти на обычные аккорды, хотя можно и на баре продолжать

intro:
Dm F C Am
e|-----------------------------0---|
H|-----3-----1---------1-------1---| 2 times
G|---2---2-----2-----0---0---2---2-|
D|-0-------3-----3-2-------2-------|

verse1:

Dm F C Am Dm F C Am
e|-----------------------------0---|-----------------------------0---|
H|-----3-----1---------1-------1---|-----3-----1---------1-------1---|
G|---2---2-----2-----0---0---2---2-|---2---2-----2-----0---0---2---2-|
D|-0-------3-----3-2-------2-------|-0-------3-----3-2-------2-------|
У ночного огня под огромной луной Темный лес ...

[otsiuda boiem] [tiho]
...Я тебе подарил C Am F Dm {i otrubka na C} половинку себя
Dm F C Am
e|-----------------------------0---|
H|-----3-----1---------1-------1---| 2 times
G|---2---2-----2-----0---0---2---2-|
D|-0-------3-----3-2-------2-------|

verse2:
Dm F C Am Dm F C Am
e|-----------------------------0---|-----------------------------0---|
H|-----3-----1---------1-------1---|-----3-----1---------1-------1---|
G|---2---2-----2-----0---0---2---2-|---2---2-----2-----0---0---2---2-|
D|-0-------3-----3-2-------2-------|-0-------3-----3-2-------2-------|
Свет далекой звезды песни птиц до утра...

[otsiuda boiem] [tiho]
...Я оставил с тобой C Am F Dm {i otrubka na C} половинку себя

verse3: [po nijnim strunam]
Dm F C A Dm F C A
То что было забыто то что было прошло...


outro:
Dm F C A *4 times



lyrics:
У ночного огня под огромной луной Темный лес укрывал нас зеленой листвой
Я тебя целовал у ночного огня Я тебе подарил (C Am Dm F)половинку себя

Свет далекой звезды песни птиц до утра Ты смотрела в глаза мои шептала слова
Ты не верила мне но любила меня Я оставил с тобой (C Am Dm F)половинку себя

То что было забыто то что было прошло Ты махала мне в след бирюзовым платком
Я тебя целовал у ночного огня Ты оставила мне (C Am Dm F)половинку меня


1 комментарий: